OCONNOR .foro no oficial.

OCONNOR - CANIBAL (yo no caso una, solo ctrl+c ctrl+v)

Ir abajo

OCONNOR - CANIBAL (yo no caso una, solo ctrl+c ctrl+v)

Mensaje por EL MALEFICO el Vie Dic 12, 2008 8:27 pm

e|---------|--------------------|
B|---------|--------------------|
G|---------|--------------------|
D|-5-2-3-2-|-5-2-3-2--2---------|
A|-3-0-1-0-|-3-0-1-0--0--6-7----|
E|---------|-------------4-5----|

------ X3

e|------------------------------------------------|
B|------------------------------------------------|
G|------------------------------------------------|
D|-5-2-3-2-2-2-2--5-2-3-2-2-2-2--5-2-3-2--2-------|
A|-3-0-1-0-0-0-0--3-0-1-0-0-0-0--3-0-1-0--0--6-7--|
E|-------------------------------------------4-5--|

e|------------------------------------------------|
B|------------------------------------------------|
G|------------------------------------------------|
D|-5-2-3-2-2-2-2--5-2-3-2-2-2-2--5-2-3-2--2--8-8--|
A|-3-0-1-0-0-0-0--3-0-1-0-0-0-0--3-0-1-0--0--6-6--|
E|------------------------------------------------|

CANTO

e|---------------------------------------------------|
B|---------------------------------------------------|
G|---------------------------------------------------|
D|-2-2-2-2-2-2-2--2-2-2-2-2-2-2--2-2-2-2--2--5-2-3-2-|
A|-0-0-0-0-0-0-0--0-0-0-0-0-0-0--0-0-0-0--0--3-0-1-0-|
E|---------------------------------------------------|

-----Siguen comiendo carne / La compulsiva masticación................

e|---------------------|
B|---------------------|
G|---------------------|
D|-2-2-2-2-2-2-2--2-8--|
A|-0-0-0-0-0-0-0--0-6--|
E|---------------------|

-----Te lleva al matadero....

e|------------------------------------------------|
B|------------------------------------------------|
G|------------------------------------------------|
D|-5-2-3-2-2-2-2--5-2-3-2-2-2-2--5-2-3-2--2-------|
A|-3-0-1-0-0-0-0--3-0-1-0-0-0-0--3-0-1-0--0--6-7--|
E|-------------------------------------------4-5--|

--------Por joder...-----------te vas a enloquecer, -------------Caníbal

e|------------------------------------------------|
B|------------------------------------------------|
G|------------------------------------------------|
D|-5-2-3-2-2-2-2--5-2-3-2-2-2-2--5-2-3-2--2--8-8--|
A|-3-0-1-0-0-0-0--3-0-1-0-0-0-0--3-0-1-0--0--6-6--|
E|------------------------------------------------|


-------------Por joder -------------------te vas a enloquecer...


Morfaste de la infancia
Y te empachaste de Carnaval
Mientras el pueblo sangra.
Por joder te vas a enloquecer, Caníbal
Por joder te vas a enloquecer

-LA ------------------------FA
Si nada es justo, -nadie lo quiere ver

-LA -------------------------------FA
Porque me esfuerzo ---entonces por creer

-LA -------------- ------------FA
Si todo pasa ------------quien se va a joder

-LA ---------------------------------FA
Solo son ramas------------ que tienen que caer.

Agárrense Carajo
La subasta no terminó
Te acecha una manada
Por joder te vas a enloquecer, Caníbal

FUENTE: http://lacuerda.net/
Por joder te vas a enloquecer

_________________
Un noble espiritu agrandece al hombre mas pequeño
avatar
EL MALEFICO
The Supreme Mod
The Supreme Mod

Masculino Posteos : 4693
Edad : 42
Soy de : los pagos del tiempo
Miembro desde : 05/12/2008

Ver perfil de usuario

Volver arriba Ir abajo

Volver arriba

- Temas similares

 
Permisos de este foro:
No puedes responder a temas en este foro.