OCONNOR .foro no oficial.

OCONNOR - Cuantas palabras (yo no caso una, solo ctrl+c ctrl+v)

Ir abajo

OCONNOR - Cuantas palabras (yo no caso una, solo ctrl+c ctrl+v)

Mensaje por EL MALEFICO el Vie Dic 12, 2008 9:42 pm

RIFF 1
e|-----------------------------------|
b|-----------------------------------|
g|-----------------------------------| x2
d|----4/5---4/5---4/5---4/5---4/5----|
a|-----------------------------------|
e|--0-----0-----0-----0-----0------0-|

RIFF 2
e|------------------------------|
b|------------------------------|
g|-------7--------------7-------|
d|--2----7----7----2----7----7--|
a|--2----5----7----2----5----7--|
e|--0---------5----0---------5--|

RIFF 1
e|-----------------------------------|
b|-----------------------------------|
g|-----------------------------------| x2
d|----4/5---4/5---4/5---4/5---4/5----|
a|-----------------------------------|
e|--0-----0-----0-----0-----0------0-|

RIFF 2
e|------------------------------|
b|------------------------------|
g|-------7--------------7-------|
d|--2----7----7----2----7----7--|
a|--2----5----7----2----5----7--|
e|--0---------5----0---------5--|

canto:
RIFF 1
RIFF 2
RIFF 1
RIFF 2

'la vida no hay que...'
e|---------------------|
b|---------------------|
g|---------------------|
d|-----7--7------5--5--| x3
a|-----5--4------3--2--|
e|--0---------0--------|

e|------------------------|
b|------------------------|
g|------------------------|
d|-----5--6----4/5--5--5--|
a|-----3--4---------3--2--|
e|--0--------0------------|


RIFF 1
RIFF 2
RIFF 1
RIFF 1
e|---------------------|
b|---------------------|
g|---------------------|
d|-----7--7------5--5--| x3
a|-----5--4------3--2--|
e|--0---------0--------|

e|------------------------|
b|------------------------|
g|------------------------|
d|-----5--6----4/5--5--5--|
a|-----3--4---------3--2--|
e|--0--------0------------|
PAUSA
(creo que es asi)
e|------------------------------------|
b|------------------------------------|
g|------------------------------------|
d|------2-------0---------0-----------| x4 y el resto del solo
a|----2-------2--------2--------------|
e|--0-----0-3------2---------3--2--0--|

e|---------------------|
b|---------------------|
g|---------------------|
d|-----7--7------5--5--| x3
a|-----5--4------3--2--|
e|--0---------0--------|

e|------------------------|
b|------------------------|
g|------------------------|
d|-----5--6----4/5--5--5--|
a|-----3--4---------3--2--|
e|--0--------0------------|

e|---------------------|
b|---------------------|
g|---------------------|
d|-----7--7------5--5--| x3
a|-----5--4------3--2--|
e|--0---------0--------|

e|------------------------|
b|------------------------|
g|------------------------|
d|-----5--6----4/5--5--5--|
a|-----3--4---------3--2--|
e|--0--------0------------|

_________________
Un noble espiritu agrandece al hombre mas pequeño
avatar
EL MALEFICO
The Supreme Mod
The Supreme Mod

Masculino Posteos : 4693
Edad : 43
Soy de : los pagos del tiempo
Miembro desde : 05/12/2008

Ver perfil de usuario

Volver arriba Ir abajo

Volver arriba

- Temas similares

 
Permisos de este foro:
No puedes responder a temas en este foro.