OCONNOR .foro no oficial.

Mastifal Cuando el sol crucifique mi nombre PARA BAJO

Ir abajo

Mastifal Cuando el sol crucifique mi nombre PARA BAJO

Mensaje por EL MALEFICO el Lun Mar 09, 2009 11:29 am

Mastifal
Cuando el sol crucifique mi nombre

RIFF 1
1)----------------------------------------------------------------------------
2)---------------------------------------------------------------3-2----------
3)--------------4545--------------------------------4545------------3-2-------
4)-1-1-1-1-0000------1-1-1-1-0000-4444-1-1-1-1-0000------1-1-1-1--------3-2-1-x2

Corta, RIFF 1 (solo x1)

RIFF 2
1)-----------------------
2)------------------32---
3)-0--------3-0---1---32-
4)---0-1-134----0--------x3

RIFF 1 , RIFF 2 (solo x1)

1)-----------------------------------------
2)-----------------------------------------
3)--------22-33--------22-33-----77-----77-
4)-0^1111-------0^1111-------000----000----x4

1)------------------------------------------------------------------
2)------------------------------------------------------------------
3)--------22-33--------22-33--0000-000-1-0000-000-1-0000-000-1-3--3-
4)-0^1111-------0^1111----------------------------------------------

1)--------------------------- ---------------
2)----8\99--8\99-8-7-5-2-5-7- -8-7-5-2-5-7---
3)--------------------------- ---------------
4)-00------------------------x3 -------------0-

1)---------------------------------------------------------------------------------------
2)-----------------------------------3-2---------3-2---------3-2---------3-2-------------
3)------1------------1-1-1---------------3-2---------3-2---------3-2---------1-1-1-------
4)-00-----00----00---------1-1-1-0-----------320---------320---------320-----------1-1-1-

1)------------------ ---------------------------
2)--------------3-3- ---------------------------
3)------------------ ---------------1-1-1-------
4)-000000000000-----x3 -0000000000000-------1-1-1-

1)------------------------------------------------------------------------------------
2)----3---2---------------3---2---------------3---2---------------3---2---------------
3)------------3---2---------------3---2---------------3---2---------------1-1-1-------
4)-00---0---0---0---0-320---0---0---0---0-320---0---0---0---0-320---0---0-------1-1-1-

RIFF 3
1)----------------------------------------------------------------------------
2)----------------------------------------------------------------------------
3)-----------------------------------45---------------------------------------
4)-1111-1-111-1-11-1111-1-111-1-1-11----1111-1-111-1-1-11-1111-1-111-1-1-11-0-x4

RIFF 2, RIFF 3 (solo x2)

_________________
Un noble espiritu agrandece al hombre mas pequeño
avatar
EL MALEFICO
The Supreme Mod
The Supreme Mod

Masculino Posteos : 4693
Edad : 42
Soy de : los pagos del tiempo
Miembro desde : 05/12/2008

Ver perfil de usuario

Volver arriba Ir abajo

Volver arriba

- Temas similares

 
Permisos de este foro:
No puedes responder a temas en este foro.