OCONNOR .foro no oficial.

Hermética Desde el Oeste PARA BAJO

Ir abajo

Hermética Desde el Oeste PARA BAJO

Mensaje por EL MALEFICO el Lun Mar 09, 2009 11:26 am

Hermética
Desde el Oeste

Intro:
G|------------------------|X2|------------------------------------------|
D|------------------------|--|------------------------------------------|
A|------------------------|--|--------------------------------7-7-7-7-7-|
E|--5--2--0-0-0-0-0-0-0-0-|--|--5--2-0-0-0-0-0-0-0-0--2-0---------------|

Riff 1:
G|------------------------|X2|----------------------------|
D|------------------------|--|----------------------------|
A|------------------------|--|----------------------------|
E|--5--2--0-0-0-0-0-0-0-0-|--|--5--2-0-0-0-0-0-0-0-0--2-0-|

Riff 2:
G|---------------------------------------------------------|
D|---------------------------------------------------------|
A|--------------------------------------------7-7-7-7-7-7--|
E|-8-8-8-8-8--10-10-10-10-10-10--7-7-7-7-7-7---------------|
G|-----------------------|
D|-----------------------|
A|-----------------------|
E|--8-8-8-8-8-8--7-7-6-6-|

Riff 2:
G|---------------------------------|----------------------------------------|
D|---------------------------------|----------------------------------------|
A|---------------------------------|----------------------------------------|
E|---------------------------------|----------------------------------------|
Intro:X2
Riff 1:X2
Caida la noche en la ciudad,
con mi cuerpo en soledad,
Caminando por los barrios de oeste.

El insomnio de un amor,
con su futuro de ilución,
revivio a un joven civilmente.

Riff 2
La gente ya fue,
duerme junto a la TV.
El digestivo incendio es su Dios.
Es su Dios

Riff 1:X2
Gatas y gatos buscan luz,
los perros oscuridad,
intuidos por la anciedad de su instito.

Elementales del monton,
intoxicados de pasión,
sienten miedo al verme lejos de su niebla.

Riff 2:X2
Y la soledad,
nos invita a escapar,
por la gran puerta del mundo de hoy.

Donde nadie ve,
y pocos deben perder,
el hilo de su conmoción Idiota

Solo:

Riff 2:X2
Esquivando el temor,
de la ficticia ficción,
la ciudad sea derretido en mi cabeza.

Todo es oscoridad,
alguien se aproxima a mi,
no puedo ver si es evangelista o policía

Riff 1:X2
Busco comprender,
pero no me deja ver
por la burocracia de su historia.

Donde nadie ve,
y pocos deben perder,
el hilo de su conmoción idiota, hoy.

Riff 2:
Digestivos,
Conformados
pecadores falsamente perdonados.

_________________
Un noble espiritu agrandece al hombre mas pequeño
avatar
EL MALEFICO
The Supreme Mod
The Supreme Mod

Masculino Posteos : 4693
Edad : 43
Soy de : los pagos del tiempo
Miembro desde : 05/12/2008

Ver perfil de usuario

Volver arriba Ir abajo

Volver arriba

- Temas similares

 
Permisos de este foro:
No puedes responder a temas en este foro.