OCONNOR .foro no oficial.

Hermética Del Colimba PARA BAJO

Ir abajo

Hermética Del Colimba PARA BAJO

Mensaje por EL MALEFICO el Lun Mar 09, 2009 11:24 am

Hermética
Del Colimba

Intro De Viola

Riff 1
G|-------------------------|---------------------|
D|*------------------------|---------------------|
A|*-0---3-5---5-7-10-5-7-5-|-0--3-5--5-7-5-3-5-3-|
E|----0-----0--------------|---0----0------------|
Riff 2
G|------------------------------------------------------------------|
D|------------------------------------------------------------------|
A|-----------3-2-3-2-------------------------0---3-5---5-7-10-5-7-5-|
E|3--3--1--0---------5--3--3--1--1--3--1--3-----0-----0-------------|

G|-------------------------|----------------------|
D|-------------------------|----------------------|
A|-0--3-5--5-7-5-3-5-3-----|------------3-2-3-2---|
E|---0----0------------3---|-3--3--1--0---------5-|

Durante el Solo de guitarra:

G|-----|-----|-----|-----|-------|-----|-----|-----|-----|-----|
D|-----|-----|-----|-----|-------|-----|-----|-----|-----|-----|
A|-----|-----|-----|-----|-------|--3--|-----|--3--|-----|--3--|
E|--3--|--1--|--1--|--3--|--1-3--|-----|--1--|-----|--1--|-----|

G|---------------|-----|-----|-----|-----|-----------------|
D|---------------|-----|-----|-----|-----|-----------------|
A|---------------|--5--|--5--|-----|-----|-----------------|
E|--3--3--5--3-5-|-----|-----|--1--|--1--|-3-3-3-3-3-3-3-3-|

G|-----------------|
D|-----------------|
A|-----------------|
E|-3-3-3-3-3-3-3-3-| Fin Del Solo

Despues:
Riff 1 X2
Riff 2 X1
Riff 1 X4

_________________
Un noble espiritu agrandece al hombre mas pequeño
avatar
EL MALEFICO
The Supreme Mod
The Supreme Mod

Masculino Posteos : 4693
Edad : 42
Soy de : los pagos del tiempo
Miembro desde : 05/12/2008

Ver perfil de usuario

Volver arriba Ir abajo

Volver arriba

- Temas similares

 
Permisos de este foro:
No puedes responder a temas en este foro.