OCONNOR .foro no oficial.

Hermética Deja de robar PARA BAJO

Ir abajo

Hermética Deja de robar PARA BAJO

Mensaje por EL MALEFICO el Lun Mar 09, 2009 11:22 am

Hermética
Deja de robar

Intro de Bajo con Batería

G|-----------------+------------+----------------
D|-----------------+------------+----------------
A|--7-7-(5)-8---7--+--7-7-(5)-7-+--------5-7-5---
E|-----------------+------------+----5-7-------7-

Verso
G|-----------------------------------------------
D|-----------------------------------------------
A|----------------5--7------------------8--7-----
E|-0-0-0-0-0-0-0-------0-0-0-0-0-0-0-0-----------

G|-------------------------------------------------------------
D|-------------------------------------------------------------
A|----------------5--7------------------8--7----------5-7-5--5-
E|-0-0-0-0-0-0-0--------0-0-0-0-0-0-0-0-----------5-7-------7--

G|-----------------------------------------------
D|-----------------------------------------------
A|----------------5--7------------------8--7-----
E|-0-0-0-0-0-0-0-------0-0-0-0-0-0-0-0-----------

G|-----------------------------------------------
D|-----------------------------------------------
A|----------------5--7-----------------5-7-5-----
E|-0-0-0-0-0-0-0-------------------5-7-------7---

Estribillo
G|-----------------+------------+----------------
D|-----------------+------------+----------------
A|--7-7-(5)-8---7--+--7-7-(5)-7-+--------5-7-5---
E|-----------------+------------+----5-7-------7-

Verso
G|-----------------------------------------------
D|-----------------------------------------------
A|----------------5--7------------------8--7-----
E|-0-0-0-0-0-0-0-------0-0-0-0-0-0-0-0-----------

G|-------------------------------------------------------------
D|-------------------------------------------------------------
A|----------------5--7------------------8--7----------5-7-5--5-
E|-0-0-0-0-0-0-0--------0-0-0-0-0-0-0-0-----------5-7-------7--

G|-----------------------------------------------
D|-----------------------------------------------
A|----------------5--7------------------8--7-----
E|-0-0-0-0-0-0-0-------0-0-0-0-0-0-0-0-----------

G|-----------------------------------------------
D|-----------------------------------------------
A|----------------5--7-----------------5-7-5-----
E|-0-0-0-0-0-0-0-------------------5-7-------7---

Estribillo
G|-----------------+------------+----------------
D|-----------------+------------+----------------
A|--7-7-(5)-8---7--+--7-7-(5)-7-+--------5-7-5---
E|-----------------+------------+----5-7-------7-

Inter
G|-----------------------------------------------
D|----------------------------------------------- x3
A|------4--3--4-------5--4--5--------------------
E|-0-0-----------0-0------------(2)--------------

Verso “de quien destruye el cielo eres servidor”...
G|-----------------------------------------------
D|-----------------------------------------------
A|------------------3-3-3-3-3-3-3-3-3-3-3--------
E|-2-2-2-2-2-2-2-2-2-----------------------------

“el vaciamiento está en vos”
G|-----------------------------------------------
D|-----------------------------------------------
A|-------------------5-5-5-5-5-5--5-5-5-5-5-5----
E|-3-3-3-3-3-3-3-3-3-----------------------------

G|-----------------------------------------------
D|-----------------------------------------------
A|------------------3-3-3-3-3-3-3-3-3-3-3--------
E|-2-2-2-2-2-2-2-2-2-----------------------------

G|-----------------------------------------------
D|-----------------------------------------------
A|-------------------5-5-5-5-5-5--5-5-5-5-5-5----
E|-3-3-3-3-3-3-3-3-3-----------------------------

Solo de Guitarra del Tano Romano
G|-----------------+------------+----------------
D|-----------------+------------+----------------
A|--7-7-(5)-8---7--+--7-7-(5)-7-+--------5-7-5---
E|-----------------+------------+----5-7-------7-

Estribillo:
G|-----------------+------------+----------------
D|-----------------+------------+----------------
A|--7-7-(5)-8---7--+--7-7-(5)-7-+--------5-7-5---
E|-----------------+------------+----5-7-------7-

_________________
Un noble espiritu agrandece al hombre mas pequeño
avatar
EL MALEFICO
The Supreme Mod
The Supreme Mod

Masculino Posteos : 4693
Edad : 43
Soy de : los pagos del tiempo
Miembro desde : 05/12/2008

Ver perfil de usuario

Volver arriba Ir abajo

Volver arriba

- Temas similares

 
Permisos de este foro:
No puedes responder a temas en este foro.