OCONNOR .foro no oficial.

Hermética Cuando duerme la ciudad PARA BAJO

Ir abajo

Hermética Cuando duerme la ciudad PARA BAJO

Mensaje por EL MALEFICO el Lun Mar 09, 2009 11:20 am

Hermética
Cuando duerme la ciudad

Intro:
G|-----------------------------|--------------------------------|x2
D|-*---------------------------|---------7-6------------------*-|
A|-*--------7--6---------------|--------------7--8---10—8--7--*-|
E|---0--5---------7--10--8--5--|--0--5--------------------------|


G|------------------------------------------------|
D|------------------------------------------------|
A|--------8--7-------------8--7---------8--7-5-4--|
E|--0--5----------5-4-0-5--------8-7--------------|


G|-----------------------------------------------------------------------------------|
D|-----------------------------------------------------------------------------------|
A|-4-4-7-10-10/12-8---8--7-5-3-2-1-1-1-5-8------7/8\7--3-3-3-5--3-3/7--3-3-3-5—3-3/7-|
E|-----------------------------------------5-5~--------------------------------------|



G|-----------------------|------------------------------------------------------|
D|-----------------------|------------------------------------------------------|
A|--3-3-3-5--3-7-5-3-2-0-|---------------------------------------------3-6-5-3--|
E|-----------------------|------8—5----8--6~---6-6--6-6--5~-------8-5-----------|

A D
La ciudad dormida y él anda aun,
G A
buscando un amigo que no se abra de piernas.
D e D e
Las patrullas, sé, no lo dejarán,
D e D C B A
porque para eso allí están.


G|---------------------|
D|---------------------|
A|------7--------------|
E|--------8--5---8--6--|


A# A
El vecindario que le sonrió de niño,
D# A
lo denunció por verlo muy despreocupado.
A# A
Y al no querer herir a quien lo trajo a vida,
G F E
anda por la ciudad dormida sin lugar donde parar.

G|---------------------|
D|---------------------|
A|------7--------------|
E|--------8--5---8--6--|

A# A
Reformatorios policiales son el sitio
D# A
donde condenan al menor no reclamado.
A# A
La sociedad lo adopta como hijo de puta,
G F E
por eso escapa de la yuta cuando duerme la ciudad.

Final:varias veces
G|----------------------------|------------------------------|
D|----------------------------|---------7-6------------------|
A|---------7--6---------------|--------------7--8---10—8--7--|
E|--0--5---------7--10--8--5--|--0--5------------------------|

A D G e C B
G|-----| G|-----| G|-----| G|-----| G|-----| G|-----|
D|-----| D|-----| D|-----| D|-----| D|-----| D|-----|
A|-----| A|--5--| A|-----| A|--7--| A|--3--| A|--2--|
E|--5--| E|-----| E|--3--| E|-----| E|-----| E|-----|
A# D# F E
G|-----| G|-----| G|-----| G|-----|
D|-----| D|-----| D|-----| D|-----|
A|-----| A|--6--| A|-----| A|-----|
E|--6--| E|-----| E|-----| E|--0--|

_________________
Un noble espiritu agrandece al hombre mas pequeño
avatar
EL MALEFICO
The Supreme Mod
The Supreme Mod

Masculino Posteos : 4693
Edad : 43
Soy de : los pagos del tiempo
Miembro desde : 05/12/2008

Ver perfil de usuario

Volver arriba Ir abajo

Volver arriba

- Temas similares

 
Permisos de este foro:
No puedes responder a temas en este foro.