OCONNOR .foro no oficial.

Hermética Atravezando todo límte PARA BAJO

Ir abajo

Hermética Atravezando todo límte PARA BAJO

Mensaje por EL MALEFICO el Lun Mar 09, 2009 11:15 am

HERMETICA
Atravezando todo límte

G|-------------------------------------------
D|------------------------4------------------
A|----------5--7--7----5------5--5---4-------
E|--7--7-------------------------------------

G|-------------------------------------------
D|------------------------4------------------
A|----------5--7--7----5------5--5-----------
E|--7--7-----------------------------5-------

A las montañas del noroeste argentino
G|-------------------------------------------
D|-------------------------------------------
A|-------------------5--5--5--5--5-----------
E|--7--7--7--7--7-------------------5--5--5--

te dirigiste hermano
G|-------------------------------------------
D|-------------------------------------------
A|--7--7--7--7-------------------------------
E|--------------5--5--5----------------------

Dejando grabado por siempre en mi corazón
G|-------------------------------------------
D|-------------------------------------------
A|-------------------5--5--5--5--5-----------
E|--7--7--7--7--7-------------------5--5--5--

a quel fuerte abrazo
G|-------------------------------------------
D|-------------------------------------------
A|--7--7--7--7-------------------------------
E|--------------5--5--5----------------------

donde mostraste tu intima conciencia
G|-------------------------------------------
D|-------------------------------------------
A|---------------------5--5--5--5--5--5------
E|--3--3--3--3--3--3-------------------------

de guerrero impecable (riff1)
G|-------------------------------------------
D|-------------------------------------------
A|-------------------------------------------
E|--5--5--5---7--7--7--7---9h10--9--7--------

que marcha firme a cumplir su destino
G|-------------------------------------------
D|-------------------------------------------
A|---------------------5--5--5--5--5--5------
E|--3--3--3--3--3--3-------------------------

si nada a nadie deber (intro)
G|-------------------------------------------
D|-------------------------------------------
A|-------------------------------------------
E|--5--5--5---7--7--7--7---------------------

Paso el tiempo y sin saber nada de vos, salimos a buscarte,
soñe con verte libre a las luz del sol y se que lo lograste.

Mas solo fueron testigos de estas inmesidades,
historia triste fue vernos vencidos y sin hallarte volver

NOTA: Se queda en Si (E--7--)en esta parte que dice
“Tener que volver”

Y enfrentar cara de gente que no entiende
G|-------------------------------------------
D|-------------------------------------------
A|---------------------2--2--2--2--2--2--2---
E|--3--3--3--3--3--3-------------------------

Y que con burla justifica su ignorancia
G|-------------------------------------------
D|-------------------------------------------
A|---------------------2--2--2--2--2--2--2---
E|--3--3--3--3--3--3-------------------------

Olvidando que la pesadilla
G|-------------------------------------------
D|-------------------------------------------
A|---------------------2--2--2--2--2--2--2---
E|--3--3--3--3--3--3-------------------------

Suele hacerse realidad
G|-------------------------------------------
D|-------------------------------------------
A|--5--5------------(7)----------------------
E|--------5--5--5----------------------------

Riff2 x 2
G|-------------------------------------------
D|-------------------------------------------
A|-------------------------------------------
E|--7--7--10--9---------7--7--8--7------------

Solo del Tano, en bajo:
G|-------------------------------------------
D|-------------------------------------------
A|-------------------------------------------
E|--7--7--7--7---3--3--3--5--5--5--7--7--7---

G|-------------------------------------------
D|-------------------------------------------
A|-------------------------------------------
E|--5--5--5--3--3--3--5--5--5--5--7--7--7--7-


G|-------------------------------------------
D|-------------------------------------------
A|-------------------------------------------
E|--5--5--5--3--3--3--5--5--5--5--7--7--7--7-

G|-------------------------------------------
D|-------------------------------------------
A|------------------7--7--7------------------
E|--5--5--5--5--5----------------------------

Riff2 x 2

Intro

_________________
Un noble espiritu agrandece al hombre mas pequeño
avatar
EL MALEFICO
The Supreme Mod
The Supreme Mod

Masculino Posteos : 4693
Edad : 43
Soy de : los pagos del tiempo
Miembro desde : 05/12/2008

Ver perfil de usuario

Volver arriba Ir abajo

Volver arriba

- Temas similares

 
Permisos de este foro:
No puedes responder a temas en este foro.